ISO-10303-21;
HEADER;
/* Generated by software containing ST-Developer
 * from STEP Tools, Inc. (www.steptools.com) 
 */

FILE_DESCRIPTION(
/* description */ (''),
/* implementation_level */ '2;1');

FILE_NAME(
/* name */ 
'S:\\Bilder_neu\\11659_KriTec_Aluwinkel_8_40x40x80x4_schwarz_pulverbes
chichtet\\Inventordateien\\11659_KriTec_Aluwinkel_8_40x40x80x4_schwarz
 pulverbeschichtet.stp',
/* time_stamp */ '2018-03-01T11:35:05+01:00',
/* author */ ('kostic'),
/* organization */ (''),
/* preprocessor_version */ 'ST-DEVELOPER v15.2',
/* originating_system */ 'Autodesk Inventor 2014',
/* authorisation */ '');

FILE_SCHEMA (('CONFIG_CONTROL_DESIGN'));
ENDSEC;

DATA;
#10=MECHANICAL_DESIGN_GEOMETRIC_PRESENTATION_REPRESENTATION('',(#215,#227,
#225,#226,#216,#224,#221,#220,#218,#223,#217,#219,#222),#385);
#11=SHAPE_REPRESENTATION_RELATIONSHIP('SRR','None',#394,#12);
#12=ADVANCED_BREP_SHAPE_REPRESENTATION($,(#241),#384);
#13=LINE('',#347,#31);
#14=LINE('',#349,#32);
#15=LINE('',#351,#33);
#16=LINE('',#353,#34);
#17=LINE('',#355,#35);
#18=LINE('',#356,#36);
#19=LINE('',#359,#37);
#20=LINE('',#361,#38);
#21=LINE('',#362,#39);
#22=LINE('',#365,#40);
#23=LINE('',#366,#41);
#24=LINE('',#369,#42);
#25=LINE('',#370,#43);
#26=LINE('',#373,#44);
#27=LINE('',#374,#45);
#28=LINE('',#377,#46);
#29=LINE('',#378,#47);
#30=LINE('',#380,#48);
#31=VECTOR('',#291,40.);
#32=VECTOR('',#292,4.);
#33=VECTOR('',#293,36.);
#34=VECTOR('',#294,36.);
#35=VECTOR('',#295,4.);
#36=VECTOR('',#296,40.);
#37=VECTOR('',#299,80.);
#38=VECTOR('',#300,4.);
#39=VECTOR('',#301,80.);
#40=VECTOR('',#304,36.);
#41=VECTOR('',#305,80.);
#42=VECTOR('',#308,36.);
#43=VECTOR('',#309,80.);
#44=VECTOR('',#312,4.);
#45=VECTOR('',#313,80.);
#46=VECTOR('',#316,40.);
#47=VECTOR('',#317,80.);
#48=VECTOR('',#320,40.);
#49=PLANE('',#255);
#50=PLANE('',#256);
#51=PLANE('',#257);
#52=PLANE('',#258);
#53=PLANE('',#259);
#54=PLANE('',#260);
#55=PLANE('',#261);
#56=PLANE('',#262);
#57=FACE_BOUND('',#82,.T.);
#58=FACE_BOUND('',#84,.T.);
#59=FACE_BOUND('',#86,.T.);
#60=FACE_BOUND('',#88,.T.);
#61=FACE_BOUND('',#91,.T.);
#62=FACE_BOUND('',#92,.T.);
#63=FACE_BOUND('',#93,.T.);
#64=FACE_BOUND('',#94,.T.);
#65=FACE_BOUND('',#95,.T.);
#66=FACE_BOUND('',#96,.T.);
#67=FACE_BOUND('',#98,.T.);
#68=FACE_BOUND('',#99,.T.);
#69=FACE_BOUND('',#100,.T.);
#70=FACE_BOUND('',#101,.T.);
#71=FACE_BOUND('',#102,.T.);
#72=FACE_BOUND('',#103,.T.);
#73=FACE_OUTER_BOUND('',#81,.T.);
#74=FACE_OUTER_BOUND('',#83,.T.);
#75=FACE_OUTER_BOUND('',#85,.T.);
#76=FACE_OUTER_BOUND('',#87,.T.);
#77=FACE_OUTER_BOUND('',#89,.T.);
#78=FACE_OUTER_BOUND('',#90,.T.);
#79=FACE_OUTER_BOUND('',#97,.T.);
#80=FACE_OUTER_BOUND('',#104,.T.);
#81=EDGE_LOOP('',(#159));
#82=EDGE_LOOP('',(#160));
#83=EDGE_LOOP('',(#161));
#84=EDGE_LOOP('',(#162));
#85=EDGE_LOOP('',(#163));
#86=EDGE_LOOP('',(#164));
#87=EDGE_LOOP('',(#165));
#88=EDGE_LOOP('',(#166));
#89=EDGE_LOOP('',(#167,#168,#169,#170,#171,#172));
#90=EDGE_LOOP('',(#173,#174,#175,#176));
#91=EDGE_LOOP('',(#177));
#92=EDGE_LOOP('',(#178));
#93=EDGE_LOOP('',(#179,#180,#181,#182));
#94=EDGE_LOOP('',(#183));
#95=EDGE_LOOP('',(#184));
#96=EDGE_LOOP('',(#185,#186,#187,#188));
#97=EDGE_LOOP('',(#189,#190,#191,#192));
#98=EDGE_LOOP('',(#193));
#99=EDGE_LOOP('',(#194));
#100=EDGE_LOOP('',(#195,#196,#197,#198));
#101=EDGE_LOOP('',(#199));
#102=EDGE_LOOP('',(#200));
#103=EDGE_LOOP('',(#201,#202,#203,#204));
#104=EDGE_LOOP('',(#205,#206,#207,#208,#209,#210));
#105=CIRCLE('',#244,4.25);
#106=CIRCLE('',#245,4.25);
#107=CIRCLE('',#247,4.25);
#108=CIRCLE('',#248,4.25);
#109=CIRCLE('',#250,4.25);
#110=CIRCLE('',#251,4.25);
#111=CIRCLE('',#253,4.25);
#112=CIRCLE('',#254,4.25);
#113=VERTEX_POINT('',#325);
#114=VERTEX_POINT('',#327);
#115=VERTEX_POINT('',#330);
#116=VERTEX_POINT('',#332);
#117=VERTEX_POINT('',#335);
#118=VERTEX_POINT('',#337);
#119=VERTEX_POINT('',#340);
#120=VERTEX_POINT('',#342);
#121=VERTEX_POINT('',#345);
#122=VERTEX_POINT('',#346);
#123=VERTEX_POINT('',#348);
#124=VERTEX_POINT('',#350);
#125=VERTEX_POINT('',#352);
#126=VERTEX_POINT('',#354);
#127=VERTEX_POINT('',#358);
#128=VERTEX_POINT('',#360);
#129=VERTEX_POINT('',#364);
#130=VERTEX_POINT('',#368);
#131=VERTEX_POINT('',#372);
#132=VERTEX_POINT('',#376);
#133=EDGE_CURVE('',#113,#113,#105,.T.);
#134=EDGE_CURVE('',#114,#114,#106,.T.);
#135=EDGE_CURVE('',#115,#115,#107,.T.);
#136=EDGE_CURVE('',#116,#116,#108,.T.);
#137=EDGE_CURVE('',#117,#117,#109,.T.);
#138=EDGE_CURVE('',#118,#118,#110,.T.);
#139=EDGE_CURVE('',#119,#119,#111,.T.);
#140=EDGE_CURVE('',#120,#120,#112,.T.);
#141=EDGE_CURVE('',#121,#122,#13,.T.);
#142=EDGE_CURVE('',#122,#123,#14,.T.);
#143=EDGE_CURVE('',#123,#124,#15,.T.);
#144=EDGE_CURVE('',#124,#125,#16,.T.);
#145=EDGE_CURVE('',#125,#126,#17,.T.);
#146=EDGE_CURVE('',#126,#121,#18,.T.);
#147=EDGE_CURVE('',#127,#122,#19,.T.);
#148=EDGE_CURVE('',#128,#127,#20,.T.);
#149=EDGE_CURVE('',#128,#123,#21,.T.);
#150=EDGE_CURVE('',#129,#128,#22,.T.);
#151=EDGE_CURVE('',#129,#124,#23,.T.);
#152=EDGE_CURVE('',#130,#129,#24,.T.);
#153=EDGE_CURVE('',#130,#125,#25,.T.);
#154=EDGE_CURVE('',#131,#130,#26,.T.);
#155=EDGE_CURVE('',#131,#126,#27,.T.);
#156=EDGE_CURVE('',#132,#131,#28,.T.);
#157=EDGE_CURVE('',#121,#132,#29,.T.);
#158=EDGE_CURVE('',#127,#132,#30,.T.);
#159=ORIENTED_EDGE('',*,*,#133,.F.);
#160=ORIENTED_EDGE('',*,*,#134,.F.);
#161=ORIENTED_EDGE('',*,*,#135,.F.);
#162=ORIENTED_EDGE('',*,*,#136,.F.);
#163=ORIENTED_EDGE('',*,*,#137,.F.);
#164=ORIENTED_EDGE('',*,*,#138,.F.);
#165=ORIENTED_EDGE('',*,*,#139,.F.);
#166=ORIENTED_EDGE('',*,*,#140,.F.);
#167=ORIENTED_EDGE('',*,*,#141,.T.);
#168=ORIENTED_EDGE('',*,*,#142,.T.);
#169=ORIENTED_EDGE('',*,*,#143,.T.);
#170=ORIENTED_EDGE('',*,*,#144,.T.);
#171=ORIENTED_EDGE('',*,*,#145,.T.);
#172=ORIENTED_EDGE('',*,*,#146,.T.);
#173=ORIENTED_EDGE('',*,*,#147,.F.);
#174=ORIENTED_EDGE('',*,*,#148,.F.);
#175=ORIENTED_EDGE('',*,*,#149,.T.);
#176=ORIENTED_EDGE('',*,*,#142,.F.);
#177=ORIENTED_EDGE('',*,*,#137,.T.);
#178=ORIENTED_EDGE('',*,*,#139,.T.);
#179=ORIENTED_EDGE('',*,*,#149,.F.);
#180=ORIENTED_EDGE('',*,*,#150,.F.);
#181=ORIENTED_EDGE('',*,*,#151,.T.);
#182=ORIENTED_EDGE('',*,*,#143,.F.);
#183=ORIENTED_EDGE('',*,*,#133,.T.);
#184=ORIENTED_EDGE('',*,*,#135,.T.);
#185=ORIENTED_EDGE('',*,*,#151,.F.);
#186=ORIENTED_EDGE('',*,*,#152,.F.);
#187=ORIENTED_EDGE('',*,*,#153,.T.);
#188=ORIENTED_EDGE('',*,*,#144,.F.);
#189=ORIENTED_EDGE('',*,*,#153,.F.);
#190=ORIENTED_EDGE('',*,*,#154,.F.);
#191=ORIENTED_EDGE('',*,*,#155,.T.);
#192=ORIENTED_EDGE('',*,*,#145,.F.);
#193=ORIENTED_EDGE('',*,*,#134,.T.);
#194=ORIENTED_EDGE('',*,*,#136,.T.);
#195=ORIENTED_EDGE('',*,*,#155,.F.);
#196=ORIENTED_EDGE('',*,*,#156,.F.);
#197=ORIENTED_EDGE('',*,*,#157,.F.);
#198=ORIENTED_EDGE('',*,*,#146,.F.);
#199=ORIENTED_EDGE('',*,*,#138,.T.);
#200=ORIENTED_EDGE('',*,*,#140,.T.);
#201=ORIENTED_EDGE('',*,*,#157,.T.);
#202=ORIENTED_EDGE('',*,*,#158,.F.);
#203=ORIENTED_EDGE('',*,*,#147,.T.);
#204=ORIENTED_EDGE('',*,*,#141,.F.);
#205=ORIENTED_EDGE('',*,*,#158,.T.);
#206=ORIENTED_EDGE('',*,*,#156,.T.);
#207=ORIENTED_EDGE('',*,*,#154,.T.);
#208=ORIENTED_EDGE('',*,*,#152,.T.);
#209=ORIENTED_EDGE('',*,*,#150,.T.);
#210=ORIENTED_EDGE('',*,*,#148,.T.);
#211=CYLINDRICAL_SURFACE('',#243,4.25);
#212=CYLINDRICAL_SURFACE('',#246,4.25);
#213=CYLINDRICAL_SURFACE('',#249,4.25);
#214=CYLINDRICAL_SURFACE('',#252,4.25);
#215=STYLED_ITEM('',(#404),#228);
#216=STYLED_ITEM('',(#404),#229);
#217=STYLED_ITEM('',(#404),#230);
#218=STYLED_ITEM('',(#404),#231);
#219=STYLED_ITEM('',(#404),#232);
#220=STYLED_ITEM('',(#404),#233);
#221=STYLED_ITEM('',(#404),#234);
#222=STYLED_ITEM('',(#404),#235);
#223=STYLED_ITEM('',(#404),#236);
#224=STYLED_ITEM('',(#404),#237);
#225=STYLED_ITEM('',(#404),#238);
#226=STYLED_ITEM('',(#404),#239);
#227=STYLED_ITEM('',(#403),#241);
#228=ADVANCED_FACE('',(#73,#57),#211,.F.);
#229=ADVANCED_FACE('',(#74,#58),#212,.F.);
#230=ADVANCED_FACE('',(#75,#59),#213,.F.);
#231=ADVANCED_FACE('',(#76,#60),#214,.F.);
#232=ADVANCED_FACE('',(#77),#49,.T.);
#233=ADVANCED_FACE('',(#78),#50,.T.);
#234=ADVANCED_FACE('',(#61,#62,#63),#51,.T.);
#235=ADVANCED_FACE('',(#64,#65,#66),#52,.T.);
#236=ADVANCED_FACE('',(#79),#53,.T.);
#237=ADVANCED_FACE('',(#67,#68,#69),#54,.T.);
#238=ADVANCED_FACE('',(#70,#71,#72),#55,.T.);
#239=ADVANCED_FACE('',(#80),#56,.T.);
#240=CLOSED_SHELL('',(#228,#229,#230,#231,#232,#233,#234,#235,#236,#237,
#238,#239));
#241=MANIFOLD_SOLID_BREP('Volumenk\X\F6rper4',#240);
#242=AXIS2_PLACEMENT_3D('placement',#323,#263,#264);
#243=AXIS2_PLACEMENT_3D('',#324,#265,#266);
#244=AXIS2_PLACEMENT_3D('',#326,#267,#268);
#245=AXIS2_PLACEMENT_3D('',#328,#269,#270);
#246=AXIS2_PLACEMENT_3D('',#329,#271,#272);
#247=AXIS2_PLACEMENT_3D('',#331,#273,#274);
#248=AXIS2_PLACEMENT_3D('',#333,#275,#276);
#249=AXIS2_PLACEMENT_3D('',#334,#277,#278);
#250=AXIS2_PLACEMENT_3D('',#336,#279,#280);
#251=AXIS2_PLACEMENT_3D('',#338,#281,#282);
#252=AXIS2_PLACEMENT_3D('',#339,#283,#284);
#253=AXIS2_PLACEMENT_3D('',#341,#285,#286);
#254=AXIS2_PLACEMENT_3D('',#343,#287,#288);
#255=AXIS2_PLACEMENT_3D('',#344,#289,#290);
#256=AXIS2_PLACEMENT_3D('',#357,#297,#298);
#257=AXIS2_PLACEMENT_3D('',#363,#302,#303);
#258=AXIS2_PLACEMENT_3D('',#367,#306,#307);
#259=AXIS2_PLACEMENT_3D('',#371,#310,#311);
#260=AXIS2_PLACEMENT_3D('',#375,#314,#315);
#261=AXIS2_PLACEMENT_3D('',#379,#318,#319);
#262=AXIS2_PLACEMENT_3D('',#381,#321,#322);
#263=DIRECTION('axis',(0.,0.,1.));
#264=DIRECTION('refdir',(1.,0.,0.));
#265=DIRECTION('center_axis',(1.83697019872103E-016,-1.,0.));
#266=DIRECTION('ref_axis',(1.,1.83697019872103E-016,0.));
#267=DIRECTION('center_axis',(3.08395284618099E-017,-1.,0.));
#268=DIRECTION('ref_axis',(1.,1.83697019872103E-016,0.));
#269=DIRECTION('center_axis',(-1.83697019872103E-016,1.,0.));
#270=DIRECTION('ref_axis',(1.,1.83697019872103E-016,0.));
#271=DIRECTION('center_axis',(1.83697019872103E-016,-1.,0.));
#272=DIRECTION('ref_axis',(1.,1.83697019872103E-016,0.));
#273=DIRECTION('center_axis',(3.08395284618099E-017,-1.,0.));
#274=DIRECTION('ref_axis',(1.,1.83697019872103E-016,0.));
#275=DIRECTION('center_axis',(-1.83697019872103E-016,1.,0.));
#276=DIRECTION('ref_axis',(1.,1.83697019872103E-016,0.));
#277=DIRECTION('center_axis',(-1.,0.,0.));
#278=DIRECTION('ref_axis',(0.,0.,1.));
#279=DIRECTION('center_axis',(-1.,-2.15876699232669E-016,0.));
#280=DIRECTION('ref_axis',(0.,0.,1.));
#281=DIRECTION('center_axis',(1.,0.,0.));
#282=DIRECTION('ref_axis',(0.,0.,1.));
#283=DIRECTION('center_axis',(-1.,0.,0.));
#284=DIRECTION('ref_axis',(0.,0.,1.));
#285=DIRECTION('center_axis',(-1.,-2.15876699232669E-016,0.));
#286=DIRECTION('ref_axis',(0.,0.,1.));
#287=DIRECTION('center_axis',(1.,0.,0.));
#288=DIRECTION('ref_axis',(0.,0.,1.));
#289=DIRECTION('center_axis',(0.,0.,-1.));
#290=DIRECTION('ref_axis',(-1.,0.,0.));
#291=DIRECTION('',(0.,1.,0.));
#292=DIRECTION('',(1.,0.,0.));
#293=DIRECTION('',(2.15876699232669E-016,-1.,0.));
#294=DIRECTION('',(1.,3.08395284618099E-017,0.));
#295=DIRECTION('',(0.,-1.,0.));
#296=DIRECTION('',(-1.,-1.83697019872103E-016,0.));
#297=DIRECTION('center_axis',(0.,1.,0.));
#298=DIRECTION('ref_axis',(-1.,0.,0.));
#299=DIRECTION('',(0.,0.,-1.));
#300=DIRECTION('',(-1.,0.,0.));
#301=DIRECTION('',(0.,0.,-1.));
#302=DIRECTION('center_axis',(1.,2.15876699232669E-016,0.));
#303=DIRECTION('ref_axis',(-1.77635683940025E-016,1.,0.));
#304=DIRECTION('',(-2.15876699232669E-016,1.,0.));
#305=DIRECTION('',(0.,0.,-1.));
#306=DIRECTION('center_axis',(-3.08395284618099E-017,1.,0.));
#307=DIRECTION('ref_axis',(-1.,0.,0.));
#308=DIRECTION('',(-1.,-3.08395284618099E-017,0.));
#309=DIRECTION('',(0.,0.,-1.));
#310=DIRECTION('center_axis',(1.,0.,0.));
#311=DIRECTION('ref_axis',(0.,1.,0.));
#312=DIRECTION('',(0.,1.,0.));
#313=DIRECTION('',(0.,0.,-1.));
#314=DIRECTION('center_axis',(1.83697019872103E-016,-1.,0.));
#315=DIRECTION('ref_axis',(1.,1.83697019872103E-016,0.));
#316=DIRECTION('',(1.,1.83697019872103E-016,0.));
#317=DIRECTION('',(0.,0.,1.));
#318=DIRECTION('center_axis',(-1.,0.,0.));
#319=DIRECTION('ref_axis',(0.,-1.,0.));
#320=DIRECTION('',(0.,-1.,0.));
#321=DIRECTION('center_axis',(0.,0.,1.));
#322=DIRECTION('ref_axis',(1.,0.,0.));
#323=CARTESIAN_POINT('',(0.,0.,0.));
#324=CARTESIAN_POINT('Origin',(20.,97.9795897113271,20.));
#325=CARTESIAN_POINT('',(15.75,4.,20.));
#326=CARTESIAN_POINT('Origin',(20.,4.,20.));
#327=CARTESIAN_POINT('',(24.25,4.4546527318985E-015,20.));
#328=CARTESIAN_POINT('Origin',(20.,0.,20.));
#329=CARTESIAN_POINT('Origin',(20.,97.9795897113271,-20.));
#330=CARTESIAN_POINT('',(15.75,4.,-20.));
#331=CARTESIAN_POINT('Origin',(20.,4.,-20.));
#332=CARTESIAN_POINT('',(24.25,4.4546527318985E-015,-20.));
#333=CARTESIAN_POINT('Origin',(20.,0.,-20.));
#334=CARTESIAN_POINT('Origin',(97.9795897113271,20.,-20.));
#335=CARTESIAN_POINT('',(4.,20.,-24.25));
#336=CARTESIAN_POINT('Origin',(4.,20.,-20.));
#337=CARTESIAN_POINT('',(0.,20.,-15.75));
#338=CARTESIAN_POINT('Origin',(0.,20.,-20.));
#339=CARTESIAN_POINT('Origin',(97.9795897113271,20.,20.));
#340=CARTESIAN_POINT('',(4.,20.,15.75));
#341=CARTESIAN_POINT('Origin',(4.,20.,20.));
#342=CARTESIAN_POINT('',(0.,20.,24.25));
#343=CARTESIAN_POINT('Origin',(0.,20.,20.));
#344=CARTESIAN_POINT('Origin',(11.9,11.9,-40.));
#345=CARTESIAN_POINT('',(0.,0.,-40.));
#346=CARTESIAN_POINT('',(0.,40.,-40.));
#347=CARTESIAN_POINT('',(0.,0.,-40.));
#348=CARTESIAN_POINT('',(4.,40.,-40.));
#349=CARTESIAN_POINT('',(0.,40.,-40.));
#350=CARTESIAN_POINT('',(4.00000000000001,4.00000000000001,-40.));
#351=CARTESIAN_POINT('',(4.,40.,-40.));
#352=CARTESIAN_POINT('',(40.,4.00000000000001,-40.));
#353=CARTESIAN_POINT('',(4.00000000000001,4.00000000000001,-40.));
#354=CARTESIAN_POINT('',(40.,7.34788079488412E-015,-40.));
#355=CARTESIAN_POINT('',(40.,4.00000000000001,-40.));
#356=CARTESIAN_POINT('',(40.,7.34788079488412E-015,-40.));
#357=CARTESIAN_POINT('Origin',(4.,40.,0.));
#358=CARTESIAN_POINT('',(0.,40.,40.));
#359=CARTESIAN_POINT('',(0.,40.,0.));
#360=CARTESIAN_POINT('',(4.,40.,40.));
#361=CARTESIAN_POINT('',(0.,40.,40.));
#362=CARTESIAN_POINT('',(4.,40.,0.));
#363=CARTESIAN_POINT('Origin',(4.00000000000001,4.00000000000001,0.));
#364=CARTESIAN_POINT('',(4.00000000000001,4.00000000000001,40.));
#365=CARTESIAN_POINT('',(4.,40.,40.));
#366=CARTESIAN_POINT('',(4.00000000000001,4.00000000000001,0.));
#367=CARTESIAN_POINT('Origin',(40.,4.00000000000001,0.));
#368=CARTESIAN_POINT('',(40.,4.00000000000001,40.));
#369=CARTESIAN_POINT('',(4.00000000000001,4.00000000000001,40.));
#370=CARTESIAN_POINT('',(40.,4.00000000000001,0.));
#371=CARTESIAN_POINT('Origin',(40.,7.21644966006352E-015,0.));
#372=CARTESIAN_POINT('',(40.,7.34788079488412E-015,40.));
#373=CARTESIAN_POINT('',(40.,4.00000000000001,40.));
#374=CARTESIAN_POINT('',(40.,7.34788079488412E-015,0.));
#375=CARTESIAN_POINT('Origin',(0.,0.,0.));
#376=CARTESIAN_POINT('',(0.,0.,40.));
#377=CARTESIAN_POINT('',(40.,7.34788079488412E-015,40.));
#378=CARTESIAN_POINT('',(0.,0.,0.));
#379=CARTESIAN_POINT('Origin',(0.,40.,0.));
#380=CARTESIAN_POINT('',(0.,0.,40.));
#381=CARTESIAN_POINT('Origin',(11.9,11.9,40.));
#382=UNCERTAINTY_MEASURE_WITH_UNIT(LENGTH_MEASURE(0.01),#386,
'DISTANCE_ACCURACY_VALUE',
'Maximum model space distance between geometric entities at asserted c
onnectivities');
#383=UNCERTAINTY_MEASURE_WITH_UNIT(LENGTH_MEASURE(1.E-006),#386,
'DISTANCE_ACCURACY_VALUE',
'Maximum model space distance between geometric entities at asserted c
onnectivities');
#384=(
GEOMETRIC_REPRESENTATION_CONTEXT(3)
GLOBAL_UNCERTAINTY_ASSIGNED_CONTEXT((#382))
GLOBAL_UNIT_ASSIGNED_CONTEXT((#386,#389,#387))
REPRESENTATION_CONTEXT('','3D')
);
#385=(
GEOMETRIC_REPRESENTATION_CONTEXT(3)
GLOBAL_UNCERTAINTY_ASSIGNED_CONTEXT((#383))
GLOBAL_UNIT_ASSIGNED_CONTEXT((#386,#389,#387))
REPRESENTATION_CONTEXT('','3D')
);
#386=(
LENGTH_UNIT()
NAMED_UNIT(*)
SI_UNIT(.MILLI.,.METRE.)
);
#387=(
NAMED_UNIT(*)
SI_UNIT($,.STERADIAN.)
SOLID_ANGLE_UNIT()
);
#388=DIMENSIONAL_EXPONENTS(0.,0.,0.,0.,0.,0.,0.);
#389=(
CONVERSION_BASED_UNIT('degree',#391)
NAMED_UNIT(#388)
PLANE_ANGLE_UNIT()
);
#390=(
NAMED_UNIT(*)
PLANE_ANGLE_UNIT()
SI_UNIT($,.RADIAN.)
);
#391=PLANE_ANGLE_MEASURE_WITH_UNIT(PLANE_ANGLE_MEASURE(0.01745329252),#390);
#392=SHAPE_DEFINITION_REPRESENTATION(#393,#394);
#393=PRODUCT_DEFINITION_SHAPE('',$,#396);
#394=SHAPE_REPRESENTATION('',(#242),#384);
#395=DESIGN_CONTEXT('part definition',#400,'design');
#396=PRODUCT_DEFINITION(
'11659_KriTec_Aluwinkel_8_40x40x80x4_schwarz pulverbeschichtet',
'11659_KriTec_Aluwinkel_8_40x40x80x4_schwarz pulverbeschichtet',#397,#395);
#397=PRODUCT_DEFINITION_FORMATION('',$,#402);
#398=PRODUCT_RELATED_PRODUCT_CATEGORY(
'11659_KriTec_Aluwinkel_8_40x40x80x4_schwarz pulverbeschichtet',
'11659_KriTec_Aluwinkel_8_40x40x80x4_schwarz pulverbeschichtet',(#402));
#399=APPLICATION_PROTOCOL_DEFINITION('international standard',
'ap203_configuration_controlled_3d_design_of_mechanical_parts_and_asse
mblies_mim_lf',2004,#400);
#400=APPLICATION_CONTEXT(
'Configuration Controlled 3D Design of Mechanical Parts and Assemblies');
#401=MECHANICAL_CONTEXT('part definition',#400,'mechanical');
#402=PRODUCT(
'11659_KriTec_Aluwinkel_8_40x40x80x4_schwarz pulverbeschichtet',
'11659_KriTec_Aluwinkel_8_40x40x80x4_schwarz pulverbeschichtet',$,(#401));
#403=PRESENTATION_STYLE_ASSIGNMENT((#405));
#404=PRESENTATION_STYLE_ASSIGNMENT((#406));
#405=SURFACE_STYLE_USAGE(.BOTH.,#407);
#406=SURFACE_STYLE_USAGE(.BOTH.,#408);
#407=SURFACE_SIDE_STYLE($,(#409));
#408=SURFACE_SIDE_STYLE($,(#410));
#409=SURFACE_STYLE_FILL_AREA(#411);
#410=SURFACE_STYLE_FILL_AREA(#412);
#411=FILL_AREA_STYLE($,(#413));
#412=FILL_AREA_STYLE($,(#414));
#413=FILL_AREA_STYLE_COLOUR($,#415);
#414=FILL_AREA_STYLE_COLOUR($,#416);
#415=COLOUR_RGB('',0.831372549019608,0.831372549019608,0.831372549019608);
#416=COLOUR_RGB('',0.0196078431372549,0.0196078431372549,0.0196078431372549);
ENDSEC;
END-ISO-10303-21;
